Pages

Wednesday, May 28, 2014

Kembara - Keroncong Untuk Ana








Kembara - Keroncong Untuk Ana

Intro
E ----------------------------------------------------
A ----------------------------------------------------
D --------7v----10---8---7---------7v-----------------
G --7--8-------------------7---8----------------------
B ----------------------------------------------------
E ----------------------------------------------------

E ----------------------------------------------------
A ----------------------------------------------------
D --10---8---7--------7-------------------------------
G ---------------10-------8v----10---7---------7---5v-
B -------------------------------------8--------------
E ----------------------------------------10----------

Verse

Am E Am
Benarkah tiadakah bagiku

E  Dm
Ruang di hatimu

E  Am
Untuk ku tatapkan

Am E Am
Walaupun sejengkal jari

E  Dm
Hanya dapat ku berdiri

E  Am
Di ambang pintumu

Chorus

E   Am
Ke mana hilangnya keroncong

 Dm
Oh....cinta yang kita

 Am
Nyanyikan bersama

    E   Am
Ataupun aku yang bersalah

    Dm  E 
Hanya menepuk tangan sebelah saja



Dm E  Dm E  Dm E  Am
Ana...Ana...Ana...Ana...



Interlude
E ----------------------------------------------------
A ----------------------------------------------------
D --------7v----10---8---7---------7v-----------------
G --7--8-------------------7---8----------------------
B ----------------------------------------------------
E ----------------------------------------------------

E ----------------------------------------------------
A ----------------------------------------------------
D --10---8---7--------7-------------------------------
G ---------------10-------8v----10---7---------7---5v-
B -------------------------------------8--------------
E ----------------------------------------10----------

Outro

Am E Am
Tiada ku sangka akhirnya

E  Dm
Kau tutup semua

E  Am
Pintu cinta untuk ku

Am  E Am
Tinggal ku termenung tiada

E  Dm
Arah yang ku tuju

E  Am
Membawa hati ku


No comments:

Post a Comment

Related Posts Plugin for WordPress, Blogger...